Женя Мильковский - Девчонка,что не со мной

аккорды куплета по табам:

1 2 3
1 ------------------- ------------------- -------------------
2 ------------------- ------------------- -------------------
3 ------------------- ------------------- -------------------
4 ---4--------------- ---4--------------- ---4---------------
5 ---5--------------- ---5--------------- -------------------
6 ------------------- ---7--------------- ---3---------------


аккорды припева:

4 5 6
1 ------------------- ------------------- -------------------
2 ------------------- ------------------- -------------------
3 ---7--------------- ---6--------------- --4----------------
4 ------------------- ------------------- -------------------
5 ------------------- ------------------- -------------------
6 ---7--------------- ---5--------------- --3----------------

7 8
1 ------------------- -------------------
2 ------------------- -------------------
3 ---7--------------- ---6---------------
4 ---5--------------- ---5---------------
5 ------------------- -------------------
6 ------------------- -------------------

перебор куплета: 5(6)-4345(6)4
перебор припева:643-464,для 8 аккорда-54434


вступление: аккорды 1,2,3


Куплет:
1 2
Течёт во мне рекой,
2 3
Девчонка, что не со мной
3 1
Девчонка, что не со мной
1 2
Она красивей всех
2 3
Я просто танцую вверх
3 4
Я просто танцую вверх


Припев:
5 6
Застенчивые сердца-а-а
6 4
Как первый сне-е-ег,
5 6
Потерянный навсегда-а-а
6 4
Доверься мне-е-е
5 6 7
Я делаю первый ша-а-аг,летит душа-а-а
8
Моя душа-а-а..


2 Куплет:
1 2
Выходит за края
2 3
Девчонка, что не моя
3 1
Девчонка, что не моя
1 2
Мы с ней из разных стран
3
Я просто пою в экран
3 4
Я просто пою в экран


Припев:
5 6
Застенчивые сердца-а-а
6 4
Как первый сне-е-ег,
5 6
Потерянный навсегда-а-а
6 4
Доверься мне-е-е
5 6 7
Я делаю первый ша-а-аг,летит душа-а-а
8
Моя душа-а-а..

1 2
Течёт во мне рекой,
2 3
Девчонка, что не со мной
3 1
Девчонка, что не со мной.
Поделиться
Тональность
keyboard_arrow_down
0
keyboard_arrow_up
Шрифт -
15
+
Колонки текста | || ||| >
Закладки
15
Использованные аккорды