Staind - Excess Baggage

------------------------------------------------------------------
Excess Baggage
Staind (Aaron Lewis)
------------------------------------------------------------------
Tuning: 1/2 a step down
Tabbed by Erik Nilsen

Every says that this song is easy. It is. Yet still when they try
to tab it, they mess up. This is 100% right, but if you don't tune
down it sounds awful when you sing. Listen to the CD for the timing on
the lyrics. It is on Dysfunction- Track 9- 17:09 (time).

Part 1
eb|-----------------|---------------|---------------|
A#|-----------------|---------------|---------------|
F#|---------------0-|---------------|-----0---------| Play twice
C#|-----------4-----|-4-------------|-4-------4-----|
Ab|-------2---------|-----2-------2-|-------------2-|
D#|---0-------------|---------0-----|---------------|

Part 2
eb|-----------------|---------------|---------------|
A#|-----------------|---------------|---------------|
F#|---------------0-|---------------|-----0---------| Play twice
C#|-----------4-----|-4-------------|-4-------4-----|
Ab|-------2---------|-----2-------2-|-------------2-|
D#|---3-------------|---------3-----|---------------|




Chorus
eb|-----------------|---------------|---------------|
A#|---------------0-|---------------|-----0---------|
F#|-----------2-----|-2-------------|-2-------2-----| Continue to
C#|-------2---------|-----2-------2-|-------------2-| next part
Ab|---0-------------|---------0-----|---------------|
D#|-----------------|---------------|---------------|

eb|-----------------|---------------|---------------|
A#|---------------0-|---------------|-----0---------|
F#|-----------0-----|-0-------------|-0-------0-----|
C#|-------2---------|-----2-------2-|-------------2-|
Ab|---3-------------|---------3-----|---------------|
D#|-----------------|---------------|---------------|


So here is the oder you play-
[Intro]
Part 1 followed by Part 2

[Verses]
Part 1 followed by Part 2

[Chorus]
Play the chorus part twice

[Outro]
Part 1- slow the tempo down at the end
Comments- email me at [email protected]
Поделиться
Тональность
keyboard_arrow_down
0
keyboard_arrow_up
Шрифт -
15
+
Колонки текста | || ||| >
Закладки
8
Использованные аккорды