Lacrimosa - Versuchung

^ - hammer on, pull off
b - bend string up
r - release bend
/ - slide up
\ - slide down
~ - vibrato
T - tap
x - struck string
. - play the note and then mute it
< - raising volume
PM - palm mute
AH - Artificial Harmonic

Intro:
-------------------------------------------------
-------------------------------------------------
-------------------------------------------------
-------------------------------------------------
--4.---4-4.---4.---4-4.---6.---6-6.---6.---6-6.-- } X6
--2.---2-2.---2.---2-2.---4.---4-4.---4.---4-4.--
PM...........................................

On second time starts this solo:
----------------------------------------------------------------------- } X4
-----------------------------------------------------------------------
--0--6~6~6~6~6~6~6~6~8~8~8~8~8~8~8~8~6~6~6~6~6~6~6~6~8~8~8~8~8~8^6-8^6-
-x---------------------------------------------------------------------
-----------------------------------------------------------------------
-----------------------------------------------------------------------
AH...............................................................
(All along this play aleatory Artificial Harmonics where they sound right)

Then:
----------------------------------------
----------------------------------------
----------------------------------------
----------------------------------------
--4--------6---------4--------6---------
--2--------4---------2--------4---------

ONLY BASS: F#-G#
Lieber sterben als dies noch einmal zu erleben

VERSE1:
-------------------------------------------------------------
-------------------------------------------------------------
-------------------------------------------------------------
-6-6.---6-6.---6-6.---6-6.---5-5.---5-5.---5-5.---5----------
-4-4.---4-4.---4-4.---4-4.---3-3.---3-3.---3-3.---3----------
---------------------------------------------------------12/-

-----------------------------------------
-----------------------------------------
-----------------------------------------
[----6----6----6----6----6----6----6----6-]---
[-44-4-44-4-44-4-44-4-44-4-44-4-44-4-44-4-]
[-----------------------------------------] FIG1
PM .. .. .. .. .. .. ..
[-----------------------------------------] } X4
[-----------------------------------------]
[-----------------------------------------]---
----5----5----5----5----5----5----5----5-
-33-3-33-3-33-3-33-3-33-3-33-3-33-3-33-3-
-----------------------------------------
.. .. .. .. .. .. .. ..

CHORUS:
------------------------------------------
------------------------------------------
------------------------------------------
[-----7----7----7----7---------------------]---
[--55-5-55-5-55-5-55-5----7----7----7----7-]
[----------------------55-5-55-5-55-5-55-5-]
PM .. .. .. .. .. .. .. FIG2
[------------------------------------------] } X2
[------------------------------------------]
[------------------------------------------]---
----5----5----5----5----------------------
-33-3-33-3-33-3-33-3----5----5----5----5--
---------------------33-3-33-3-33-3-33-3--
.. .. .. .. .. .. .. ..

------------------------------
------------------------------
------------------------------
--7-------------5-------------
--5------7------3------5------
---------5-------------3------

INTERLUDE:
-Only Keyboards
-Then:
--------------------------------------------------------------------
--------------------------------------------------------------------
--------------------------------------------------------------------
--------------------------------------------------8888888888888888--
--6666666666666666444444444444444422222222222222226666666666666666--
--444444444444444422222222222222220000000000000000------------------
PM......................................................

VERSE2:
-FIG1 } X4

CHORUS:
-FIG2 } X2
-then...
------------------------------------------
------------------------------------------
------------------------------------------
[-----8----8----8----8---------------------]---
[--66-6-66-6-66-6-66-6----8----8----8----8-]
[----------------------66-6-66-6-66-6-66-6-]
PM .. .. .. .. .. .. .. } X8
[------------------------------------------]
[------------------------------------------]
[------------------------------------------]---
----6----6----6----6----------------------
-44-4-44-4-44-4-44-4----6----6----6----6--
---------------------44-4-44-4-44-4-44-4--
.. .. .. .. .. .. .. ..

END:
--------------------------------------
--------------------------------------
--------------------------------------
--8.---8-8.---8.---8-8.---8.---8-8.---
--6.---6-6.---6.---6-6.---6.---6-6.---
--------------------------------------
Поделиться
Тональность
keyboard_arrow_down
0
keyboard_arrow_up
Шрифт -
15
+
Колонки текста | || ||| >
Закладки
10
Использованные аккорды