Lacrimosa - Vermachtnis der Sonne

^ - hammer on, pull off
b - bend string up
r - release bend
/ - slide up
\ - slide down
~ - vibrato
t - tap (with strumming hand)
x - struck string
. - play the note and then mute it
PM - palm mute
AH - Artificial Harmonic

Intro:
Guitar1:
Dm Am Dm Bb
[e---------1-----------0-0-----------1---------1---1-----]
[B-------3----------1---1-1--------3---------------------]FIG1
[G-----2----------2--------------2---------3-----3-------
D--0-----------2-------------0--------------3----3------
A------------0-------------------------1---------------- } X2
E-------------------------------------------------------]

SOLO Intro:
[]Guitar1: FIG1 } X4
[]Guitar2:
--10----12-13--12^13^10-12-----10--12--10-12-
---------------------------1010--10--10------
---------------------------------------------
[---------------------------------------------]----
[---------------------------------------------] FIG2
[---------------------------------------------]
} X3
[--10----12-13--12^13^10-12-----12--13--12-13-]
[---------------------------1111--11--11------]
[---------------------------------------------]----
---------------------------------------------
---------------------------------------------
---------------------------------------------

then...
--10----12-13--12^13^10-12-----10--12--10-12-
---------------------------1010--10--10------
---------------------------------------------
---------------------------------------------
---------------------------------------------
---------------------------------------------

--10----12-13--12^13^12^10-12-10---13--12----10\--
------------------------------------------13------
--------------------------------------------------
--------------------------------------------------
--------------------------------------------------
--------------------------------------------------

VERSE 1: FIG1 } X3

CHORUS:
Bb D Ddim C Edim
--------------------------- ---------------------------
[---------------------------]FIG3 [---------------------------]FIG4
--------------------------- ---------------------------
[-3------7------6------5----] } X1 [--8------7------6------5---] } X4
-1------5------5------3---- --7------5------5------3---
--------------------------- -(6)-----------------------

==================================================
[]In the studio version there is a solo played in the back:
-----12--13--12-13---------12--12-13----------12--12-13-------------------
-----------------------15-----------------15-----------------13--15--13---
-1515--15--15------1414--14--14-------1313--13--13-------1212--12--12--12-
-------------------------------------------------------------------------- } X4
--------------------------------------------------------------------------
--------------------------------------------------------------------------
[]then...
-----12--13--12-13---------12--12-13---------12--12-13------------------------
-----------------------15----------------15----------------13--15--13-15-13\--
-1515--15--15------1414--14--14------1313--13--13------1212--12--12-----------
------------------------------------------------------------------------------
------------------------------------------------------------------------------
------------------------------------------------------------------------------
==================================================

VERSE2:
Dm Am
--1-------1---1--1---0-------0---0----
--3--------3---3-----1---0^1--1---1---
--2---------2---2----2---------2---2--
--0------------------2---------------- } X2
---------------------0----------------
--------------------------------------
then:
-FIG1 X2 with power chords in D - A - D - Bb

CHORUS:
-FIG3 } X1
-FIG4 } X4

OUTRO:
[]Guitar 1: FIG1 X2 and slows down
[]Guitar 2: FIG2 X1 and this:
-10---12-13--12^13^10-12----10--12--10-12-10~--
------------------------1010--10--10-----------
-----------------------------------------------
-----------------------------------------------
-----------------------------------------------
-----------------------------------------------

--12-13--12^13^12^10-12-10---12-13--12^13^12^10--12---10--/-
------------------------------------------------------------
------------------------------------------------------------
------------------------------------------------------------
------------------------------------------------------------
------------------------------------------------------------
Поделиться
Тональность
keyboard_arrow_down
0
keyboard_arrow_up
Шрифт -
15
+
Колонки текста | || ||| >
Закладки
13
Использованные аккорды