Dodie Clark - Rainbow

[Intro]

D|-----0-----0-----0-----0-|-----0-----0-----0-----0-|
B|---3-----3-----3-----3---|---3-----3-----3-----3---|
G|-2-----2-----4-----4-----|-6-----6-----4-----4-----| x2
D|-------------------------|-------------------------|
A|-------------------------|-------------------------|
E|-------------------------|-------------------------|


[Verse 1]

D|-----0-----0-----0-----0-|-----0-----0-----0-----0-|
B|---3-----3-----3-----3---|---3-----3-----3-----3---|
G|-2-----2-----4-----4-----|-6-----6-----4-----4-----| x2
D|-------------------------|-------------------------|
A|-------------------------|-------------------------|
E|-------------------------|-------------------------|

I was brought up in a line

But I seem to walk in circles

D|-----0-----0-----0-----0-|-----0-----0-----0-----0-|
B|---3-----3-----3-----3---|---3-----3-----3-----3---|
G|-0-----0-----0-----0-----|-0-----0-----0-----0-----|
D|-------------------------|-------------------------|
A|-------------------------|-------------------------|
E|-------------------------|-------------------------|

It'€™s getting hard to navigate

When every map was never made for me

D|-----0-----0-----0-----0-|-----0-----0-----0-----0-|
B|---3-----3-----3-----3---|---3-----3-----3-----3---|
G|-2-----2-----4-----4-----|-6-----6-----4-----4-----| x3
D|-------------------------|-------------------------|
A|-------------------------|-------------------------|
E|-------------------------|-------------------------|

I thought it would feel good

To understand why I was different

D|-----0-----0-----0-----0-|-----0-----0-----0-----0-|
B|---3-----3-----3-----3---|---3-----3-----3-----3---|
G|-0-----0-----0-----0-----|-0-----0-----0-----0-----|
D|-------------------------|-------------------------|
A|-------------------------|-------------------------|
E|-------------------------|-------------------------|

But my title just talks over me

I never even asked to be this way

D|-----0-----0-----0-----0-|-----0-----0-----0-----0-|
B|---3-----3-----3-----3---|---3-----3-----3-----3---|
G|-2-----2-----4-----4-----|-6-----6-----4-----4-----|
D|-------------------------|-------------------------|
A|-------------------------|-------------------------|
E|-------------------------|-------------------------|


[Chorus]

D|-----0-----0-----0-----0-|-----0-----0-----0-----0-|
B|---1-----1-----1-----1---|---0-----0-----0-----0---|
G|-0-----0-----0-----0-----|-0-----0-----0-----0-----|
D|-------------------------|-------------------------|
A|-------------------------|-------------------------|
E|-------------------------|-------------------------|

D|-----0-----0-----0-----0-|-----0-----0-----0-----0-|
B|---3-----3-----3-----3---|---3-----3-----3-----3---|
G|-2-----2-----2-----2-----|-2-----2-----2-----2-----|
D|-------------------------|-------------------------|
A|-------------------------|-------------------------|
E|-------------------------|-------------------------|

But to say that I'€™m a rainbow

To tell me that I'm bright

D|-----0-----0-----0-----0-|-----0-----0-------------|
B|---3-----3-----3-----3---|---3-----3---------------|
G|-1-----1-----1-----1-----|-0-----0-----------------|
D|-------------------------|-------------------------|
A|-------------------------|-------------------------|
E|-------------------------|-------------------------|

When I'€™m so used to feeling wrong

Well, it makes me feel all right


[Verse 2]

D|-----0-----0-----0-----0-|-----0-----0-----0-----0-|
B|---3-----3-----3-----3---|---3-----3-----3-----3---|
G|-2-----2-----4-----4-----|-6-----6-----4-----4-----| x4
D|-------------------------|-------------------------|
A|-------------------------|-------------------------|
E|-------------------------|-------------------------|

I didn'€™t think it fair

I was not to be trusted

D|-----0-----0-----0-----0-|-----0-----0-----0-----0-|
B|---3-----3-----3-----3---|---3-----3-----3-----3---|
G|-0-----0-----0-----0-----|-0-----0-----0-----0-----|
D|-------------------------|-------------------------|
A|-------------------------|-------------------------|
E|-------------------------|-------------------------|

How can I be proud of

What a million people shout at me I'€™m not

D|-----0-----0-----0-----0-|-----0-----0-----0-----0-|
B|---3-----3-----3-----3---|---3-----3-----3-----3---|
G|-2-----2-----4-----4-----|-6-----6-----4-----4-----| x3
D|-------------------------|-------------------------|
A|-------------------------|-------------------------|
E|-------------------------|-------------------------|

So please step inside my soul

I'd love to watch you gasp

D|-----0-----0-----0-----0-|-----0-----0-----0-----0-|
B|---3-----3-----3-----3---|---3-----3-----3-----3---|
G|-0-----0-----0-----0-----|-0-----0-----0-----0-----|
D|-------------------------|-------------------------|
A|-------------------------|-------------------------|
E|-------------------------|-------------------------|

You'€™d understand in minutes

Oh I'€™d like to think you'd miss it

Cause so would I


[Chorus]

D|-----0-----0-----0-----0-|-----0-----0-----0-----0-|
B|---1-----1-----1-----1---|---0-----0-----0-----0---|
G|-0-----0-----0-----0-----|-0-----0-----0-----0-----|
D|-------------------------|-------------------------|
A|-------------------------|-------------------------|
E|-------------------------|-------------------------|

D|-----0-----0-----0-----0-|-----0-----0-----0-----0-|
B|---3-----3-----3-----3---|---3-----3-----3-----3---|
G|-2-----2-----2-----2-----|-2-----2-----2-----2-----|
D|-------------------------|-------------------------|
A|-------------------------|-------------------------|
E|-------------------------|-------------------------|

But to say that I'm a rainbow

To tell me that I'€™m bright

D|-----0-----0-----0-----0-|-----0-----0-----0-----0-|
B|---3-----3-----3-----3---|---3-----3-----3-----3---|
G|-1-----1-----1-----1-----|-0-----0-----0-----0-----|
D|-------------------------|-------------------------|
A|-------------------------|-------------------------|
E|-------------------------|-------------------------|

D|-----0-----0-----0-----0-|-----0-----0-----0-----0-|
B|---3-----3-----3-----3---|---3-----3-----3-----3---|
G|-2-----2-----2-----2-----|-2-----2-----2-----2-----|
D|-------------------------|-------------------------|
A|-------------------------|-------------------------|
E|-------------------------|-------------------------|

When I'm so used to feeling wrong

Well, it makes me feel all right

D|-----0-----0-----0-----0-|-----0-----0-----0-----0-|
B|---1-----1-----1-----1---|---0-----0-----0-----0---|
G|-0-----0-----0-----0-----|-0-----0-----0-----0-----|
D|-------------------------|-------------------------|
A|-------------------------|-------------------------|
E|-------------------------|-------------------------|

D|-----0-----0-----0-----0-|-----0-----0-----0-----0-|
B|---3-----3-----3-----3---|---3-----3-----3-----3---|
G|-2-----2-----2-----2-----|-2-----2-----2-----2-----|
D|-------------------------|-------------------------|
A|-------------------------|-------------------------|
E|-------------------------|-------------------------|

So say that I'€™m a rainbow

And tell me that I'm bright

D|-----0-----0-----0-----0-|
B|---3-----3-----3-----3---|
G|-1-----1-----1-----1-----| (pause)
D|-------------------------|
A|-------------------------|
E|-------------------------|

When I'€™m so used to feeling wrong

Well it makes me feel all right


[Outro]

D|-----0-----0-----0-----0-|-----0-----0----0-----0-|
B|---3-----3-----3-----3---|---3-----3----3-----3---|
G|-2-----2-----4-----4-----|-6-----6----4-----4-----| x2
D|-------------------------|------------------------|
A|-------------------------|------------------------|
E|-------------------------|------------------------|

D|-0-----------------------|
B|-3-----------------------|
G|-2-----------------------|
D|-------------------------|
A|-------------------------|
E|-------------------------|

[Verse 1]
I was brought up in a line
But I seem to walk in circles
It’s getting hard to navigate
When every map was never made for me
I thought it would feel good
To understand why I was different
But my title just talks over me
I never even asked to be this way

[Chorus]
But to say that I’m a rainbow
To tell me that I’m bright
When I’m so used to feeling wrong
Well, it makes me feel alright

[Verse 2]
I didn’t think it fair
I was not to be trusted
How can I be proud of
What a million people shout at me I’m not
So please step inside my soul
I’d love to watch you gasp
You’d understand in minutes
Oh I’d like to think you’d miss it
Cause so would I

[Chorus]
But to say that I’m a rainbow
To tell me that I’m bright
When I’m so used to feeling wrong
Well, it makes me feel alright
So say that I’m a rainbow
And tell me that I’m bright
When I’m so used to feeling wrong
Well, it makes me feel alright
Поделиться
Тональность
keyboard_arrow_down
0
keyboard_arrow_up
Шрифт -
15
+
Колонки текста | || ||| >
Закладки
6
Использованные аккорды