Бетховен - Девятая симфония (Ода радости)

E|-----------------------------|-------------------------------|
B|-----------------------------|-------------------------------|
G|-----0-------0-------0-----0-|-----0-------0-------0-------0-|
D|---------2--------------2----|---------3---------------3-----|
A|-3---------------3-----------|-3---------------3-------------|
E|-----------------------------|-------------------------------|

E|-----------------------------|-------------------------------|
B|-----------------------------|-------------------------------|
G|-----0-------0-------0-----0-|-----0-------0-------0-------0-|
D|---------2--------------2----|---------3---------------3-----|
A|-3---------------3-----------|-3---------------3-------------|
E|-----------------------------|-------------------------------|

E|-0-------0-------1------3----|-3-------1-------0-------------|
B|-----------------------------|-------------------------3-----|
G|-----0-------0-------0-----0-|-----0-------0-------0-------0-|
D|---------2--------------2----|---------0---------------0-----|
A|-3---------------3-----------|-2---------------2-------------|
E|-----------------------------|-------------------------------|

E|------------------------0----|-0-----------------------------|
B|-1-------1-------3-----------|-------------3---3-------------|
G|-----0-------0-------0-----0-|-----0---------------0-------0-|
D|---------2--------------2----|---------0---------------0-----|
A|-0---------------0-----------|-------------------------------|
E|-----------------------------|-3---------------3-------------|

E|-0-------0-------1------3----|-3-------1-------0-------------|
B|-----------------------------|-------------------------3-----|
G|-----0-------0-------0-----0-|-----0-------0-------0-------0-|
D|---------2--------------2----|---------0---------------0-----|
A|-3---------------3-----------|-2---------------2-------------|
E|-----------------------------|-------------------------------|

E|------------------------0----|-------------------------------|
B|-1-------1-------3-----------|-3-----------1---1-------------|
G|-----0-------0-------0-----0-|-----0---------------0-------0-|
D|---------2--------------2----|---------0---------------2-----|
A|-0---------------0-----------|-----------------3-------------|
E|-----------------------------|-3-----------------------------|

E|-----------------0-----------|---------0^--1---0-------------|
B|-3-------3--------------1----|-3-----------------------1-----|
G|-----0-------0-------0-----0-|-----0---------------0-------0-|
D|---------0--------------2----|-------------------------2-----|
A|-2---------------3-----------|-2---------------3-------------|
E|-----------------------------|-------------------------------|

E|---------0^--1---0-------------|-------------------|
B|-3-----------------------3-----|-1-------2---------|
G|-----0---------------1-------1-|-2-------2-------0-|
D|-------------------------------|-2-------0-------0-|
A|-2-----------------------------|-0-----------------|
E|-----------------0-------------|---------2-------3-|

E|-0-------0-------1-------3----|-3------1-------0-------------|
B|------------------------------|------------------------3-----|
G|-----0-------0-------0------0-|----0-------0-------0-------0-|
D|---------2---------------2----|--------0---------------0-----|
A|-3---------------3------------|-2--------------2-------------|
E|------------------------------|------------------------------|

E|-------------------------0------|-------------------|
B|-1-------1-------3--------------|-3-----------1---1-|
G|-----0-------0-------0-------0--|-----0-----------0-|
D|---------2---------------2------|---------0-------2-|
A|-0---------------0--------------|-----------------3-|
E|--------------------------------|-3-----------------|
Поделиться
Тональность
keyboard_arrow_down
0
keyboard_arrow_up
Шрифт -
15
+
Колонки текста | || ||| >
Закладки
60
Использованные аккорды