Anti-flag - Seattle Was A Riot

YOU MUST TUNE DOWN A HALF-STEP!!!

~=Hammer on for the one chorus note

INTRO
G|---------------------------------------------------------------------------|
D|---------------------------------------------------------------------------|
A|-2222222222222222-5555555555555555-0000000000000000-----------5555-0000----|
E|----------------------------------------------------3333-2222--------------|

INTRO CONTINUED
G|-------4-----------------4-------------------------------------------------|
D|---------------------------------------------------------------------------|
A|-2-----------2-----2-----------2-----2-----2-------------------------------|
E|-------------------------------------------------3---2---------------------|

VERSE
G|---4-2---2-------|-------------0-0-2---------------------------------------|
D|-------4---4-2-0-|---------0-4---------------------------------------------|
A|-2---------------|---2-5-2-------------------------------------------------|
E|-----------------|-3-------------------------------------------------------|

BREAK
G|------------------4--------------------------------------------------------|
D|--------------------4-0----------------------------------------------------|
A|-2-2-2-2-2-2-2-2-----------------------------------------------------------|
E|---------------------------------------------------------------------------|

CHORUS ??????
G|---------------4---|-------------------|------------------/---------------|
D|---------4-4-4---4-|---------7-5--4~5~4|---7-55--55-------/---------5-----|
A|-2-2-2-2-----------|-5-5-5-5-----------|-0-----77--77--55-/-----------5-5-|
E|-------------------|-------------------|-----------------3/-33333333------|

I know this all seems complicated and all, but i mean your never gonna get
better at bass if you never try. This song gets kinda simple once you've mastered
it. GOOD LUCK!!
Поделиться
Тональность
keyboard_arrow_down
0
keyboard_arrow_up
Шрифт -
15
+
Колонки текста | || ||| >
Закладки
9
Использованные аккорды